Pattern Obsession and Music Weaving

User Supported        

All Possible Scales in a Single Position

 

This is more of an intellectual exercise than anything useful. These table show all the mathematically possible scales. I would not expect anyone to play them all. The scales are computer generated, and they are not in the peoper order sometimes.

 

To find the fretboard positions of these scales, enter the notes into the Build Your Own Chord/Scale Interactive page.

Open Position

Moveable Position

c d e f g a b

c d e f g a b

e-o-1---3---

e-1---3---5-

b-o-1---3---

b-1---3---5-

g-o---2-----

g---2---4---

d-o---2-3---

d---2-3---5-

a-o---2-3---

a---2-3---5-

e-o-1---3---

e-1---3---5-

c d e f g a bb

c d e f g a bb

e-o-1---3---

e-1---3---5-

b---1---3---

b-1---3---5-

g-o---2-3---

g---2-3-----

d-o---2-3---

d---2-3---5-

a-o-1---3---

a-1---3---5-

e-o-1---3---

e-1---3---5-

c d e f g a eb

c d e f g a eb

e-o-1---3---

e-1---3---5-

b---1---3-4-

b-1---3-4-5-

g-o---2-----

g---2-------

d-o-1-2-3---

d-1-2-3---5-

a-o-----3---

a-----3---5-

e-o-1---3---

e-1---3---5-

c d e f g a ab

c d e f g a ab

e-o-1---3-4-

e-1---3-4-5-

b---1---3---

b-1---3---5-

g-o-1-2-----

g-1-2-------

d-o---2-3---

d---2-3---5-

a-o-----3---

a-----3---5-

e-o-1---3-4-

e-1---3-4-5-

c d e f g a c#

c d e f g a c#

e-o-1---3---

e-1---3---5-

b---1-2-3---

b-1-2-3---5-

g-o---2-----

g---2-------

d-o---2-3---

d---2-3---5-

a-o-----3-4-

a-----3-4-5-

e-o-1---3---

e-1---3---5-

c d e f g a f#

c d e f g a f#

e-o-1-2-3---

e-1-2-3---5-

b---1---3---

b-1---3---5-

g-o---2-----

g---2-------

d-o---2-3-4-

d---2-3-4-5-

a-o-----3---

a-----3---5-

e-o-1-2-3---

e-1-2-3---5-

c d e f g b bb

c d e f g b bb

e-o-1---3---

e-1---3-----

b-o-1---3---

b-1---3---5-

g-o-----3---

g-----3-4---

d-o---2-3---

d---2-3---5-

a---1-2-3---

a-1-2-3---5-

e-o-1---3---

e-1---3-----

c d e f g b eb

c d e f g b eb

e-o-1---3---

e-1---3-----

b-o-1---3-4-

b-1---3-4-5-

g-o---------

g-------4---

d-o-1-2-3---

d-1-2-3---5-

a-----2-3---

a---2-3---5-

e-o-1---3---

e-1---3-----

c d e f g b ab

c d e f g b ab

e-o-1---3-4-

e-1---3-4---

b-o-1---3---

b-1---3---5-

g-o-1-------

g-1-----4---

d-o---2-3---

d---2-3---5-

a-----2-3---

a---2-3---5-

e-o-1---3-4-

e-1---3-4---

c d e f g b c#

c d e f g b c#

e-o-1---3---

e-1---3-----

b-o-1-2-3---

b-1-2-3---5-

g-o---------

g-------4---

d-o---2-3---

d---2-3---5-

a-----2-3-4-

a---2-3-4-5-

e-o-1---3---

e-1---3-----

c d e f g b f#

c d e f g b f#

e-o-1-2-3---

e-1-2-3-----

b-o-1---3---

b-1---3---5-

g-o---------

g-------4---

d-o---2-3-4-

d---2-3-4-5-

a-----2-3---

a---2-3---5-

e-o-1-2-3---

e-1-2-3-----

c d e f g bb eb

c d e f g bb eb

e-o-1---3---

e-1---3-----

b---1---3-4-

b-1---3-4-5-

g-o-----3---

g-----3-----

d-o-1-2-3---

d-1-2-3---5-

a---1---3---

a-1---3---5-

e-o-1---3---

e-1---3-----

c d e f g bb ab

c d e f g bb ab

e-o-1---3-4-

e-1---3-4---

b---1---3---

b-1---3---5-

g-o-1---3---

g-1---3-----

d-o---2-3---

d---2-3---5-

a---1---3---

a-1---3---5-

e-o-1---3-4-

e-1---3-4---

c d e f g bb c#

c d e f g bb c#

e-o-1---3---

e-1---3-----

b---1-2-3---

b-1-2-3---5-

g-o-----3---

g-----3-----

d-o---2-3---

d---2-3---5-

a---1---3-4-

a-1---3-4-5-

e-o-1---3---

e-1---3-----

c d e f g bb f#

c d e f g bb f#

e-o-1-2-3---

e-1-2-3-----

b---1---3---

b-1---3---5-

g-o-----3---

g-----3-----

d-o---2-3-4-

d---2-3-4-5-

a---1---3---

a-1---3---5-

e-o-1-2-3---

e-1-2-3-----

c d e f g eb ab

c d e f g eb ab

e-o-1---3-4-

e-1---3-4---

b---1---3-4-

b-1---3-4-5-

g-o-1-------

g-1---------

d-o-1-2-3---

d-1-2-3---5-

a-------3---

a-----3---5-

e-o-1---3-4-

e-1---3-4---

c d e f g eb c#

c d e f g eb c#

e-o-1---3---

e-1---3-----

b---1-2-3-4-

b-1-2-3-4-5-

g-o---------

g-----------

d-o-1-2-3---

d-1-2-3---5-

a-------3-4-

a-----3-4-5-

e-o-1---3---

e-1---3-----

c d e f g eb f#

c d e f g eb f#

e-o-1-2-3---

e-1-2-3-----

b---1---3-4-

b-1---3-4-5-

g-o---------

g-----------

d-o-1-2-3-4-

d-1-2-3-4-5-

a-------3---

a-----3---5-

e-o-1-2-3---

e-1-2-3-----

c d e f g ab c#

c d e f g ab c#

e-o-1---3-4-

e-1---3-4---

b---1-2-3---

b-1-2-3---5-

g-o-1-------

g-1---------

d-o---2-3---

d---2-3---5-

a-------3-4-

a-----3-4-5-

e-o-1---3-4-

e-1---3-4---

c d e f g ab f#

c d e f g ab f#

e-o-1-2-3-4-

e-1-2-3-4---

b---1---3---

b-1---3---5-

g-o-1-------

g-1---------

d-o---2-3-4-

d---2-3-4-5-

a-------3---

a-----3---5-

e-o-1-2-3-4-

e-1-2-3-4---

c d e f g c# f#

c d e f g c# f#

e-o-1-2-3---

e-1-2-3-----

b---1-2-3---

b-1-2-3---5-

g-o---------

g-----------

d-o---2-3-4-

d---2-3-4-5-

a-------3-4-

a-----3-4-5-

e-o-1-2-3---

e-1-2-3-----

c d e f a b bb

c d e f a b bb

e-o-1-------

e-1-------5-

b-o-1---3---

b-1---3---5-

g-----2-3---

g---2-3-4---

d-o---2-3---

d---2-3-----

a-o-1-2-3---

a-1-2-3---5-

e-o-1-------

e-1-------5-

c d e f a b eb

c d e f a b eb

e-o-1-------

e-1-------5-

b-o-1---3-4-

b-1---3-4-5-

g-----2-----

g---2---4---

d-o-1-2-3---

d-1-2-3-----

a-o---2-3---

a---2-3---5-

e-o-1-------

e-1-------5-

c d e f a b ab

c d e f a b ab

e-o-1-----4-

e-1-----4-5-

b-o-1---3---

b-1---3---5-

g---1-2-----

g-1-2---4---

d-o---2-3---

d---2-3-----

a-o---2-3---

a---2-3---5-

e-o-1-----4-

e-1-----4-5-

c d e f a b c#

c d e f a b c#

e-o-1-------

e-1-------5-

b-o-1-2-3---

b-1-2-3---5-

g-----2-----

g---2---4---

d-o---2-3---

d---2-3-----

a-o---2-3-4-

a---2-3-4-5-

e-o-1-------

e-1-------5-

c d e f a b f#

c d e f a b f#

e-o-1-2-----

e-1-2-----5-

b-o-1---3---

b-1---3---5-

g-----2-----

g---2---4---

d-o---2-3-4-

d---2-3-4---

a-o---2-3---

a---2-3---5-

e-o-1-2-----

e-1-2-----5-

c d e f a bb eb

c d e f a bb eb

e-o-1-------

e-1-------5-

b---1---3-4-

b-1---3-4-5-

g-----2-3---

g---2-3-----

d-o-1-2-3---

d-1-2-3-----

a-o-1---3---

a-1---3---5-

e-o-1-------

e-1-------5-

c d e f a bb ab

c d e f a bb ab

e-o-1-----4-

e-1-----4-5-

b---1---3---

b-1---3---5-

g---1-2-3---

g-1-2-3-----

d-o---2-3---

d---2-3-----

a-o-1---3---

a-1---3---5-

e-o-1-----4-

e-1-----4-5-

c d e f a bb c#

c d e f a bb c#

e-o-1-------

e-1-------5-

b---1-2-3---

b-1-2-3---5-

g-----2-3---

g---2-3-----

d-o---2-3---

d---2-3-----

a-o-1---3-4-

a-1---3-4-5-

e-o-1-------

e-1-------5-

c d e f a bb f#

c d e f a bb f#

e-o-1-2-----

e-1-2-----5-

b---1---3---

b-1---3---5-

g-----2-3---

g---2-3-----

d-o---2-3-4-

d---2-3-4---

a-o-1---3---

a-1---3---5-

e-o-1-2-----

e-1-2-----5-

c d e f a eb ab

c d e f a eb ab

e-o-1-----4-

e-1-----4-5-

b---1---3-4-

b-1---3-4-5-

g---1-2-----

g-1-2-------

d-o-1-2-3---

d-1-2-3-----

a-o-----3---

a-----3---5-

e-o-1-----4-

e-1-----4-5-

c d e f a eb c#

c d e f a eb c#

e-o-1-------

e-1-------5-

b---1-2-3-4-

b-1-2-3-4-5-

g-----2-----

g---2-------

d-o-1-2-3---

d-1-2-3-----

a-o-----3-4-

a-----3-4-5-

e-o-1-------

e-1-------5-

c d e f a eb f#

c d e f a eb f#

e-o-1-2-----

e-1-2-----5-

b---1---3-4-

b-1---3-4-5-

g-----2-----

g---2-------

d-o-1-2-3-4-

d-1-2-3-4---

a-o-----3---

a-----3---5-

e-o-1-2-----

e-1-2-----5-

c d e f a ab c#

c d e f a ab c#

e-o-1-----4-

e-1-----4-5-

b---1-2-3---

b-1-2-3---5-

g---1-2-----

g-1-2-------

d-o---2-3---

d---2-3-----

a-o-----3-4-

a-----3-4-5-

e-o-1-----4-

e-1-----4-5-

c d e f a ab f#

c d e f a ab f#

e-o-1-2---4-

e-1-2---4-5-

b---1---3---

b-1---3---5-

g---1-2-----

g-1-2-------

d-o---2-3-4-

d---2-3-4---

a-o-----3---

a-----3---5-

e-o-1-2---4-

e-1-2---4-5-

c d e f a c# f#

c d e f a c# f#

e-o-1-2-----

e-1-2-----5-

b---1-2-3---

b-1-2-3---5-

g-----2-----

g---2-------

d-o---2-3-4-

d---2-3-4---

a-o-----3-4-

a-----3-4-5-

e-o-1-2-----

e-1-2-----5-

c d e f b bb eb

c d e f b bb eb

e-o-1-------

e-1---------

b-o-1---3-4-

b-1---3-4-5-

g-------3---

g-----3-4---

d-o-1-2-3---

d-1-2-3-----

a---1-2-3---

a-1-2-3---5-

e-o-1-------

e-1---------

c d e f b bb ab

c d e f b bb ab

e-o-1-----4-

e-1-----4---

b-o-1---3---

b-1---3---5-

g---1---3---

g-1---3-4---

d-o---2-3---

d---2-3-----

a---1-2-3---

a-1-2-3---5-

e-o-1-----4-

e-1-----4---

c d e f b bb c#

c d e f b bb c#

e-o-1-------

e-1---------

b-o-1-2-3---

b-1-2-3---5-

g-------3---

g-----3-4---

d-o---2-3---

d---2-3-----

a---1-2-3-4-

a-1-2-3-4-5-

e-o-1-------

e-1---------

c d e f b bb f#

c d e f b bb f#

e-o-1-2-----

e-1-2-------

b-o-1---3---

b-1---3---5-

g-------3---

g-----3-4---

d-o---2-3-4-

d---2-3-4---

a---1-2-3---

a-1-2-3---5-

e-o-1-2-----

e-1-2-------

c d e f b eb ab

c d e f b eb ab

e-o-1-----4-

e-1-----4---

b-o-1---3-4-

b-1---3-4-5-

g---1-------

g-1-----4---

d-o-1-2-3---

d-1-2-3-----

a-----2-3---

a---2-3---5-

e-o-1-----4-

e-1-----4---

c d e f b eb c#

c d e f b eb c#

e-o-1-------

e-1---------

b-o-1-2-3-4-

b-1-2-3-4-5-

g-----------

g-------4---

d-o-1-2-3---

d-1-2-3-----

a-----2-3-4-

a---2-3-4-5-

e-o-1-------

e-1---------

c d e f b eb f#

c d e f b eb f#

e-o-1-2-----

e-1-2-------

b-o-1---3-4-

b-1---3-4-5-

g-----------

g-------4---

d-o-1-2-3-4-

d-1-2-3-4---

a-----2-3---

a---2-3---5-

e-o-1-2-----

e-1-2-------

c d e f b ab c#

c d e f b ab c#

e-o-1-----4-

e-1-----4---

b-o-1-2-3---

b-1-2-3---5-

g---1-------

g-1-----4---

d-o---2-3---

d---2-3-----

a-----2-3-4-

a---2-3-4-5-

e-o-1-----4-

e-1-----4---

c d e f b ab f#

c d e f b ab f#

e-o-1-2---4-

e-1-2---4---

b-o-1---3---

b-1---3---5-

g---1-------

g-1-----4---

d-o---2-3-4-

d---2-3-4---

a-----2-3---

a---2-3---5-

e-o-1-2---4-

e-1-2---4---

c d e f b c# f#

c d e f b c# f#

e-o-1-2-----

e-1-2-------

b-o-1-2-3---

b-1-2-3---5-

g-----------

g-------4---

d-o---2-3-4-

d---2-3-4---

a-----2-3-4-

a---2-3-4-5-

e-o-1-2-----

e-1-2-------

c d e f bb eb ab

c d e f bb eb ab

e-o-1-----4-

e-1-----4---

b---1---3-4-

b-1---3-4-5-

g---1---3---

g-1---3-----

d-o-1-2-3---

d-1-2-3-----

a---1---3---

a-1---3---5-

e-o-1-----4-

e-1-----4---

c d e f bb eb c#

c d e f bb eb c#

e-o-1-------

e-1---------

b---1-2-3-4-

b-1-2-3-4-5-

g-------3---

g-----3-----

d-o-1-2-3---

d-1-2-3-----

a---1---3-4-

a-1---3-4-5-

e-o-1-------

e-1---------

c d e f bb eb f#

c d e f bb eb f#

e-o-1-2-----

e-1-2-------

b---1---3-4-

b-1---3-4-5-

g-------3---

g-----3-----

d-o-1-2-3-4-

d-1-2-3-4---

a---1---3---

a-1---3---5-

e-o-1-2-----

e-1-2-------

c d e f bb ab c#

c d e f bb ab c#

e-o-1-----4-

e-1-----4---

b---1-2-3---

b-1-2-3---5-

g---1---3---

g-1---3-----

d-o---2-3---

d---2-3-----

a---1---3-4-

a-1---3-4-5-

e-o-1-----4-

e-1-----4---

c d e f bb ab f#

c d e f bb ab f#

e-o-1-2---4-

e-1-2---4---

b---1---3---

b-1---3---5-

g---1---3---

g-1---3-----

d-o---2-3-4-

d---2-3-4---

a---1---3---

a-1---3---5-

e-o-1-2---4-

e-1-2---4---

c d e f bb c# f#

c d e f bb c# f#

e-o-1-2-----

e-1-2-------

b---1-2-3---

b-1-2-3---5-

g-------3---

g-----3-----

d-o---2-3-4-

d---2-3-4---

a---1---3-4-

a-1---3-4-5-

e-o-1-2-----

e-1-2-------

c d e f eb ab c#

c d e f eb ab c#

e-o-1-----4-

e-1-----4---

b---1-2-3-4-

b-1-2-3-4-5-

g---1-------

g-1---------

d-o-1-2-3---

d-1-2-3-----

a-------3-4-

a-----3-4-5-

e-o-1-----4-

e-1-----4---

c d e f eb ab f#

c d e f eb ab f#

e-o-1-2---4-

e-1-2---4---

b---1---3-4-

b-1---3-4-5-

g---1-------

g-1---------

d-o-1-2-3-4-

d-1-2-3-4---

a-------3---

a-----3---5-

e-o-1-2---4-

e-1-2---4---

c d e f eb c# f#

c d e f eb c# f#

e-o-1-2-----

e-1-2-------

b---1-2-3-4-

b-1-2-3-4-5-

g-----------

g-----------

d-o-1-2-3-4-

d-1-2-3-4---

a-------3-4-

a-----3-4-5-

e-o-1-2-----

e-1-2-------

c d e f ab c# f#

c d e f ab c# f#

e-o-1-2---4-

e-1-2---4---

b---1-2-3---

b-1-2-3---5-

g---1-------

g-1---------

d-o---2-3-4-

d---2-3-4---

a-------3-4-

a-----3-4-5-

e-o-1-2---4-

e-1-2---4---

c d e g a b bb

c d e g a b bb

e-o-----3---

e-----3---5-

b-o-1---3---

b-1---3---5-

g-o---2-3---

g---2-3-4---

d-o---2-----

d---2-----5-

a-o-1-2-3---

a-1-2-3---5-

e-o-----3---

e-----3---5-

c d e g a b eb

c d e g a b eb

e-o-----3---

e-----3---5-

b-o-1---3-4-

b-1---3-4-5-

g-o---2-----

g---2---4---

d-o-1-2-----

d-1-2-----5-

a-o---2-3---

a---2-3---5-

e-o-----3---

e-----3---5-

c d e g a b ab

c d e g a b ab

e-o-----3-4-

e-----3-4-5-

b-o-1---3---

b-1---3---5-

g-o-1-2-----

g-1-2---4---

d-o---2-----

d---2-----5-

a-o---2-3---

a---2-3---5-

e-o-----3-4-

e-----3-4-5-

c d e g a b c#

c d e g a b c#

e-o-----3---

e-----3---5-

b-o-1-2-3---

b-1-2-3---5-

g-o---2-----

g---2---4---

d-o---2-----

d---2-----5-

a-o---2-3-4-

a---2-3-4-5-

e-o-----3---

e-----3---5-

c d e g a b f#

c d e g a b f#

e-o---2-3---

e---2-3---5-

b-o-1---3---

b-1---3---5-

g-o---2-----

g---2---4---

d-o---2---4-

d---2---4-5-

a-o---2-3---

a---2-3---5-

e-o---2-3---

e---2-3---5-

c d e g a bb eb

c d e g a bb eb

e-o-----3---

e-----3---5-

b---1---3-4-

b-1---3-4-5-

g-o---2-3---

g---2-3-----

d-o-1-2-----

d-1-2-----5-

a-o-1---3---

a-1---3---5-

e-o-----3---

e-----3---5-

c d e g a bb ab

c d e g a bb ab

e-o-----3-4-

e-----3-4-5-

b---1---3---

b-1---3---5-

g-o-1-2-3---

g-1-2-3-----

d-o---2-----

d---2-----5-

a-o-1---3---

a-1---3---5-

e-o-----3-4-

e-----3-4-5-

c d e g a bb c#

c d e g a bb c#

e-o-----3---

e-----3---5-

b---1-2-3---

b-1-2-3---5-

g-o---2-3---

g---2-3-----

d-o---2-----

d---2-----5-

a-o-1---3-4-

a-1---3-4-5-

e-o-----3---

e-----3---5-

c d e g a bb f#

c d e g a bb f#

e-o---2-3---

e---2-3---5-

b---1---3---

b-1---3---5-

g-o---2-3---

g---2-3-----

d-o---2---4-

d---2---4-5-

a-o-1---3---

a-1---3---5-

e-o---2-3---

e---2-3---5-

c d e g a eb ab

c d e g a eb ab

e-o-----3-4-

e-----3-4-5-

b---1---3-4-

b-1---3-4-5-

g-o-1-2-----

g-1-2-------

d-o-1-2-----

d-1-2-----5-

a-o-----3---

a-----3---5-

e-o-----3-4-

e-----3-4-5-

c d e g a eb c#

c d e g a eb c#

e-o-----3---

e-----3---5-

b---1-2-3-4-

b-1-2-3-4-5-

g-o---2-----

g---2-------

d-o-1-2-----

d-1-2-----5-

a-o-----3-4-

a-----3-4-5-

e-o-----3---

e-----3---5-

c d e g a eb f#

c d e g a eb f#

e-o---2-3---

e---2-3---5-

b---1---3-4-

b-1---3-4-5-

g-o---2-----

g---2-------

d-o-1-2---4-

d-1-2---4-5-

a-o-----3---

a-----3---5-

e-o---2-3---

e---2-3---5-

c d e g a ab c#

c d e g a ab c#

e-o-----3-4-

e-----3-4-5-

b---1-2-3---

b-1-2-3---5-

g-o-1-2-----

g-1-2-------

d-o---2-----

d---2-----5-

a-o-----3-4-

a-----3-4-5-

e-o-----3-4-

e-----3-4-5-

c d e g a ab f#

c d e g a ab f#

e-o---2-3-4-

e---2-3-4-5-

b---1---3---

b-1---3---5-

g-o-1-2-----

g-1-2-------

d-o---2---4-

d---2---4-5-

a-o-----3---

a-----3---5-

e-o---2-3-4-

e---2-3-4-5-

c d e g a c# f#

c d e g a c# f#

e-o---2-3---

e---2-3---5-

b---1-2-3---

b-1-2-3---5-

g-o---2-----

g---2-------

d-o---2---4-

d---2---4-5-

a-o-----3-4-

a-----3-4-5-

e-o---2-3---

e---2-3---5-

c d e g b bb eb

c d e g b bb eb

e-o-----3---

e-----3-----

b-o-1---3-4-

b-1---3-4-5-

g-o-----3---

g-----3-4---

d-o-1-2-----

d-1-2-----5-

a---1-2-3---

a-1-2-3---5-

e-o-----3---

e-----3-----

c d e g b bb ab

c d e g b bb ab

e-o-----3-4-

e-----3-4---

b-o-1---3---

b-1---3---5-

g-o-1---3---

g-1---3-4---

d-o---2-----

d---2-----5-

a---1-2-3---

a-1-2-3---5-

e-o-----3-4-

e-----3-4---

c d e g b bb c#

c d e g b bb c#

e-o-----3---

e-----3-----

b-o-1-2-3---

b-1-2-3---5-

g-o-----3---

g-----3-4---

d-o---2-----

d---2-----5-

a---1-2-3-4-

a-1-2-3-4-5-

e-o-----3---

e-----3-----

c d e g b bb f#

c d e g b bb f#

e-o---2-3---

e---2-3-----

b-o-1---3---

b-1---3---5-

g-o-----3---

g-----3-4---

d-o---2---4-

d---2---4-5-

a---1-2-3---

a-1-2-3---5-

e-o---2-3---

e---2-3-----

c d e g b eb ab

c d e g b eb ab

e-o-----3-4-

e-----3-4---

b-o-1---3-4-

b-1---3-4-5-

g-o-1-------

g-1-----4---

d-o-1-2-----

d-1-2-----5-

a-----2-3---

a---2-3---5-

e-o-----3-4-

e-----3-4---

c d e g b eb c#

c d e g b eb c#

e-o-----3---

e-----3-----

b-o-1-2-3-4-

b-1-2-3-4-5-

g-o---------

g-------4---

d-o-1-2-----

d-1-2-----5-

a-----2-3-4-

a---2-3-4-5-

e-o-----3---

e-----3-----

c d e g b eb f#

c d e g b eb f#

e-o---2-3---

e---2-3-----

b-o-1---3-4-

b-1---3-4-5-

g-o---------

g-------4---

d-o-1-2---4-

d-1-2---4-5-

a-----2-3---

a---2-3---5-

e-o---2-3---

e---2-3-----

c d e g b ab c#

c d e g b ab c#

e-o-----3-4-

e-----3-4---

b-o-1-2-3---

b-1-2-3---5-

g-o-1-------

g-1-----4---

d-o---2-----

d---2-----5-

a-----2-3-4-

a---2-3-4-5-

e-o-----3-4-

e-----3-4---

c d e g b ab f#

c d e g b ab f#

e-o---2-3-4-

e---2-3-4---

b-o-1---3---

b-1---3---5-

g-o-1-------

g-1-----4---

d-o---2---4-

d---2---4-5-

a-----2-3---

a---2-3---5-

e-o---2-3-4-

e---2-3-4---

c d e g b c# f#

c d e g b c# f#

e-o---2-3---

e---2-3-----

b-o-1-2-3---

b-1-2-3---5-

g-o---------

g-------4---

d-o---2---4-

d---2---4-5-

a-----2-3-4-

a---2-3-4-5-

e-o---2-3---

e---2-3-----

c d e g bb eb ab

c d e g bb eb ab

e-o-----3-4-

e-----3-4---

b---1---3-4-

b-1---3-4-5-

g-o-1---3---

g-1---3-----

d-o-1-2-----

d-1-2-----5-

a---1---3---

a-1---3---5-

e-o-----3-4-

e-----3-4---

c d e g bb eb c#

c d e g bb eb c#

e-o-----3---

e-----3-----

b---1-2-3-4-

b-1-2-3-4-5-

g-o-----3---

g-----3-----

d-o-1-2-----

d-1-2-----5-

a---1---3-4-

a-1---3-4-5-

e-o-----3---

e-----3-----

c d e g bb eb f#

c d e g bb eb f#

e-o---2-3---

e---2-3-----

b---1---3-4-

b-1---3-4-5-

g-o-----3---

g-----3-----

d-o-1-2---4-

d-1-2---4-5-

a---1---3---

a-1---3---5-

e-o---2-3---

e---2-3-----

c d e g bb ab c#

c d e g bb ab c#

e-o-----3-4-

e-----3-4---

b---1-2-3---

b-1-2-3---5-

g-o-1---3---

g-1---3-----

d-o---2-----

d---2-----5-

a---1---3-4-

a-1---3-4-5-

e-o-----3-4-

e-----3-4---

c d e g bb ab f#

c d e g bb ab f#

e-o---2-3-4-

e---2-3-4---

b---1---3---

b-1---3---5-

g-o-1---3---

g-1---3-----

d-o---2---4-

d---2---4-5-

a---1---3---

a-1---3---5-

e-o---2-3-4-

e---2-3-4---

c d e g bb c# f#

c d e g bb c# f#

e-o---2-3---

e---2-3-----

b---1-2-3---

b-1-2-3---5-

g-o-----3---

g-----3-----

d-o---2---4-

d---2---4-5-

a---1---3-4-

a-1---3-4-5-

e-o---2-3---

e---2-3-----

c d e g eb ab c#

c d e g eb ab c#

e-o-----3-4-

e-----3-4---

b---1-2-3-4-

b-1-2-3-4-5-

g-o-1-------

g-1---------

d-o-1-2-----

d-1-2-----5-

a-------3-4-

a-----3-4-5-

e-o-----3-4-

e-----3-4---

c d e g eb ab f#

c d e g eb ab f#

e-o---2-3-4-

e---2-3-4---

b---1---3-4-

b-1---3-4-5-

g-o-1-------

g-1---------

d-o-1-2---4-

d-1-2---4-5-

a-------3---

a-----3---5-

e-o---2-3-4-

e---2-3-4---

c d e g eb c# f#

c d e g eb c# f#

e-o---2-3---

e---2-3-----

b---1-2-3-4-

b-1-2-3-4-5-

g-o---------

g-----------

d-o-1-2---4-

d-1-2---4-5-

a-------3-4-

a-----3-4-5-

e-o---2-3---

e---2-3-----

c d e g ab c# f#

c d e g ab c# f#

e-o---2-3-4-

e---2-3-4---

b---1-2-3---

b-1-2-3---5-

g-o-1-------

g-1---------

d-o---2---4-

d---2---4-5-

a-------3-4-

a-----3-4-5-

e-o---2-3-4-

e---2-3-4---

c d e a b bb eb

c d e a b bb eb

e-o---------

e---------5-

b-o-1---3-4-

b-1---3-4-5-

g-----2-3---

g---2-3-4---

d-o-1-2-----

d-1-2-------

a-o-1-2-3---

a-1-2-3---5-

e-o---------

e---------5-

c d e a b bb ab

c d e a b bb ab

e-o-------4-

e-------4-5-

b-o-1---3---

b-1---3---5-

g---1-2-3---

g-1-2-3-4---

d-o---2-----

d---2-------

a-o-1-2-3---

a-1-2-3---5-

e-o-------4-

e-------4-5-

c d e a b bb c#

c d e a b bb c#

e-o---------

e---------5-

b-o-1-2-3---

b-1-2-3---5-

g-----2-3---

g---2-3-4---

d-o---2-----

d---2-------

a-o-1-2-3-4-

a-1-2-3-4-5-

e-o---------

e---------5-

c d e a b bb f#

c d e a b bb f#

e-o---2-----

e---2-----5-

b-o-1---3---

b-1---3---5-

g-----2-3---

g---2-3-4---

d-o---2---4-

d---2---4---

a-o-1-2-3---

a-1-2-3---5-

e-o---2-----

e---2-----5-

c d e a b eb ab

c d e a b eb ab

e-o-------4-

e-------4-5-

b-o-1---3-4-

b-1---3-4-5-

g---1-2-----

g-1-2---4---

d-o-1-2-----

d-1-2-------

a-o---2-3---

a---2-3---5-

e-o-------4-

e-------4-5-

c d e a b eb c#

c d e a b eb c#

e-o---------

e---------5-

b-o-1-2-3-4-

b-1-2-3-4-5-

g-----2-----

g---2---4---

d-o-1-2-----

d-1-2-------

a-o---2-3-4-

a---2-3-4-5-

e-o---------

e---------5-

c d e a b eb f#

c d e a b eb f#

e-o---2-----

e---2-----5-

b-o-1---3-4-

b-1---3-4-5-

g-----2-----

g---2---4---

d-o-1-2---4-

d-1-2---4---

a-o---2-3---

a---2-3---5-

e-o---2-----

e---2-----5-

c d e a b ab c#

c d e a b ab c#

e-o-------4-

e-------4-5-

b-o-1-2-3---

b-1-2-3---5-

g---1-2-----

g-1-2---4---

d-o---2-----

d---2-------

a-o---2-3-4-

a---2-3-4-5-

e-o-------4-

e-------4-5-

c d e a b ab f#

c d e a b ab f#

e-o---2---4-

e---2---4-5-

b-o-1---3---

b-1---3---5-

g---1-2-----

g-1-2---4---

d-o---2---4-

d---2---4---

a-o---2-3---

a---2-3---5-

e-o---2---4-

e---2---4-5-

c d e a b c# f#

c d e a b c# f#

e-o---2-----

e---2-----5-

b-o-1-2-3---

b-1-2-3---5-

g-----2-----

g---2---4---

d-o---2---4-

d---2---4---

a-o---2-3-4-

a---2-3-4-5-

e-o---2-----

e---2-----5-

c d e a bb eb ab

c d e a bb eb ab

e-o-------4-

e-------4-5-

b---1---3-4-

b-1---3-4-5-

g---1-2-3---

g-1-2-3-----

d-o-1-2-----

d-1-2-------

a-o-1---3---

a-1---3---5-

e-o-------4-

e-------4-5-

c d e a bb eb c#

c d e a bb eb c#

e-o---------

e---------5-

b---1-2-3-4-

b-1-2-3-4-5-

g-----2-3---

g---2-3-----

d-o-1-2-----

d-1-2-------

a-o-1---3-4-

a-1---3-4-5-

e-o---------

e---------5-

c d e a bb eb f#

c d e a bb eb f#

e-o---2-----

e---2-----5-

b---1---3-4-

b-1---3-4-5-

g-----2-3---

g---2-3-----

d-o-1-2---4-

d-1-2---4---

a-o-1---3---

a-1---3---5-

e-o---2-----

e---2-----5-

c d e a bb ab c#

c d e a bb ab c#

e-o-------4-

e-------4-5-

b---1-2-3---

b-1-2-3---5-

g---1-2-3---

g-1-2-3-----

d-o---2-----

d---2-------

a-o-1---3-4-

a-1---3-4-5-

e-o-------4-

e-------4-5-

c d e a bb ab f#

c d e a bb ab f#

e-o---2---4-

e---2---4-5-

b---1---3---

b-1---3---5-

g---1-2-3---

g-1-2-3-----

d-o---2---4-

d---2---4---

a-o-1---3---

a-1---3---5-

e-o---2---4-

e---2---4-5-

c d e a bb c# f#

c d e a bb c# f#

e-o---2-----

e---2-----5-

b---1-2-3---

b-1-2-3---5-

g-----2-3---

g---2-3-----

d-o---2---4-

d---2---4---

a-o-1---3-4-

a-1---3-4-5-

e-o---2-----

e---2-----5-

c d e a eb ab c#

c d e a eb ab c#

e-o-------4-

e-------4-5-

b---1-2-3-4-

b-1-2-3-4-5-

g---1-2-----

g-1-2-------

d-o-1-2-----

d-1-2-------

a-o-----3-4-

a-----3-4-5-

e-o-------4-

e-------4-5-

c d e a eb ab f#

c d e a eb ab f#

e-o---2---4-

e---2---4-5-

b---1---3-4-

b-1---3-4-5-

g---1-2-----

g-1-2-------

d-o-1-2---4-

d-1-2---4---

a-o-----3---

a-----3---5-

e-o---2---4-

e---2---4-5-

c d e a eb c# f#

c d e a eb c# f#

e-o---2-----

e---2-----5-

b---1-2-3-4-

b-1-2-3-4-5-

g-----2-----

g---2-------

d-o-1-2---4-

d-1-2---4---

a-o-----3-4-

a-----3-4-5-

e-o---2-----

e---2-----5-

c d e a ab c# f#

c d e a ab c# f#

e-o---2---4-

e---2---4-5-

b---1-2-3---

b-1-2-3---5-

g---1-2-----

g-1-2-------

d-o---2---4-

d---2---4---

a-o-----3-4-

a-----3-4-5-

e-o---2---4-

e---2---4-5-

c d e b bb eb ab

c d e b bb eb ab

e-o-------4-

e-------4---

b-o-1---3-4-

b-1---3-4-5-

g---1---3---

g-1---3-4---

d-o-1-2-----

d-1-2-------

a---1-2-3---

a-1-2-3---5-

e-o-------4-

e-------4---

c d e b bb eb c#

c d e b bb eb c#

e-o---------

e-----------

b-o-1-2-3-4-

b-1-2-3-4-5-

g-------3---

g-----3-4---

d-o-1-2-----

d-1-2-------

a---1-2-3-4-

a-1-2-3-4-5-

e-o---------

e-----------

c d e b bb eb f#

c d e b bb eb f#

e-o---2-----

e---2-------

b-o-1---3-4-

b-1---3-4-5-

g-------3---

g-----3-4---

d-o-1-2---4-

d-1-2---4---

a---1-2-3---

a-1-2-3---5-

e-o---2-----

e---2-------

c d e b bb ab c#

c d e b bb ab c#

e-o-------4-

e-------4---

b-o-1-2-3---

b-1-2-3---5-

g---1---3---

g-1---3-4---

d-o---2-----

d---2-------

a---1-2-3-4-

a-1-2-3-4-5-

e-o-------4-

e-------4---

c d e b bb ab f#

c d e b bb ab f#

e-o---2---4-

e---2---4---

b-o-1---3---

b-1---3---5-

g---1---3---

g-1---3-4---

d-o---2---4-

d---2---4---

a---1-2-3---

a-1-2-3---5-

e-o---2---4-

e---2---4---

c d e b bb c# f#

c d e b bb c# f#

e-o---2-----

e---2-------

b-o-1-2-3---

b-1-2-3---5-

g-------3---

g-----3-4---

d-o---2---4-

d---2---4---

a---1-2-3-4-

a-1-2-3-4-5-

e-o---2-----

e---2-------

c d e b eb ab c#

c d e b eb ab c#

e-o-------4-

e-------4---

b-o-1-2-3-4-

b-1-2-3-4-5-

g---1-------

g-1-----4---

d-o-1-2-----

d-1-2-------

a-----2-3-4-

a---2-3-4-5-

e-o-------4-

e-------4---

c d e b eb ab f#

c d e b eb ab f#

e-o---2---4-

e---2---4---

b-o-1---3-4-

b-1---3-4-5-

g---1-------

g-1-----4---

d-o-1-2---4-

d-1-2---4---

a-----2-3---

a---2-3---5-

e-o---2---4-

e---2---4---

c d e b eb c# f#

c d e b eb c# f#

e-o---2-----

e---2-------

b-o-1-2-3-4-

b-1-2-3-4-5-

g-----------

g-------4---

d-o-1-2---4-

d-1-2---4---

a-----2-3-4-

a---2-3-4-5-

e-o---2-----

e---2-------

c d e b ab c# f#

c d e b ab c# f#

e-o---2---4-

e---2---4---

b-o-1-2-3---

b-1-2-3---5-

g---1-------

g-1-----4---

d-o---2---4-

d---2---4---

a-----2-3-4-

a---2-3-4-5-

e-o---2---4-

e---2---4---

c d e bb eb ab c#

c d e bb eb ab c#

e-o-------4-

e-------4---

b---1-2-3-4-

b-1-2-3-4-5-

g---1---3---

g-1---3-----

d-o-1-2-----

d-1-2-------

a---1---3-4-

a-1---3-4-5-

e-o-------4-

e-------4---

c d e bb eb ab f#

c d e bb eb ab f#

e-o---2---4-

e---2---4---

b---1---3-4-

b-1---3-4-5-

g---1---3---

g-1---3-----

d-o-1-2---4-

d-1-2---4---

a---1---3---

a-1---3---5-

e-o---2---4-

e---2---4---

c d e bb eb c# f#

c d e bb eb c# f#

e-o---2-----

e---2-------

b---1-2-3-4-

b-1-2-3-4-5-

g-------3---

g-----3-----

d-o-1-2---4-

d-1-2---4---

a---1---3-4-

a-1---3-4-5-

e-o---2-----

e---2-------

c d e bb ab c# f#

c d e bb ab c# f#

e-o---2---4-

e---2---4---

b---1-2-3---

b-1-2-3---5-

g---1---3---

g-1---3-----

d-o---2---4-

d---2---4---

a---1---3-4-

a-1---3-4-5-

e-o---2---4-

e---2---4---

c d e eb ab c# f#

c d e eb ab c# f#

e-o---2---4-

e---2---4---

b---1-2-3-4-

b-1-2-3-4-5-

g---1-------

g-1---------

d-o-1-2---4-

d-1-2---4---

a-------3-4-

a-----3-4-5-

e-o---2---4-

e---2---4---

c d f g a b bb

c d f g a b bb

e---1---3---

e-1---3---5-

b-o-1---3---

b-1---3-----

g-o---2-3---

g---2-3-4---

d-o-----3---

d-----3---5-

a-o-1-2-3---

a-1-2-3---5-

e---1---3---

e-1---3---5-

c d f g a b eb

c d f g a b eb

e---1---3---

e-1---3---5-

b-o-1---3-4-

b-1---3-4---

g-o---2-----

g---2---4---

d-o-1---3---

d-1---3---5-

a-o---2-3---

a---2-3---5-

e---1---3---

e-1---3---5-

c d f g a b ab

c d f g a b ab

e---1---3-4-

e-1---3-4-5-

b-o-1---3---

b-1---3-----

g-o-1-2-----

g-1-2---4---

d-o-----3---

d-----3---5-

a-o---2-3---

a---2-3---5-

e---1---3-4-

e-1---3-4-5-

c d f g a b c#

c d f g a b c#

e---1---3---

e-1---3---5-

b-o-1-2-3---

b-1-2-3-----

g-o---2-----

g---2---4---

d-o-----3---

d-----3---5-

a-o---2-3-4-

a---2-3-4-5-

e---1---3---

e-1---3---5-

c d f g a b f#

c d f g a b f#

e---1-2-3---

e-1-2-3---5-

b-o-1---3---

b-1---3-----

g-o---2-----

g---2---4---

d-o-----3-4-

d-----3-4-5-

a-o---2-3---

a---2-3---5-

e---1-2-3---

e-1-2-3---5-

c d f g a bb eb

c d f g a bb eb

e---1---3---

e-1---3---5-

b---1---3-4-

b-1---3-4---

g-o---2-3---

g---2-3-----

d-o-1---3---

d-1---3---5-

a-o-1---3---

a-1---3---5-

e---1---3---

e-1---3---5-

c d f g a bb ab

c d f g a bb ab

e---1---3-4-

e-1---3-4-5-

b---1---3---

b-1---3-----

g-o-1-2-3---

g-1-2-3-----

d-o-----3---

d-----3---5-

a-o-1---3---

a-1---3---5-

e---1---3-4-

e-1---3-4-5-

c d f g a bb c#

c d f g a bb c#

e---1---3---

e-1---3---5-

b---1-2-3---

b-1-2-3-----

g-o---2-3---

g---2-3-----

d-o-----3---

d-----3---5-

a-o-1---3-4-

a-1---3-4-5-

e---1---3---

e-1---3---5-

c d f g a bb f#

c d f g a bb f#

e---1-2-3---

e-1-2-3---5-

b---1---3---

b-1---3-----

g-o---2-3---

g---2-3-----

d-o-----3-4-

d-----3-4-5-

a-o-1---3---

a-1---3---5-

e---1-2-3---

e-1-2-3---5-

c d f g a eb ab

c d f g a eb ab

e---1---3-4-

e-1---3-4-5-

b---1---3-4-

b-1---3-4---

g-o-1-2-----

g-1-2-------

d-o-1---3---

d-1---3---5-

a-o-----3---

a-----3---5-

e---1---3-4-

e-1---3-4-5-

c d f g a eb c#

c d f g a eb c#

e---1---3---

e-1---3---5-

b---1-2-3-4-

b-1-2-3-4---

g-o---2-----

g---2-------

d-o-1---3---

d-1---3---5-

a-o-----3-4-

a-----3-4-5-

e---1---3---

e-1---3---5-

c d f g a eb f#

c d f g a eb f#

e---1-2-3---

e-1-2-3---5-

b---1---3-4-

b-1---3-4---

g-o---2-----

g---2-------

d-o-1---3-4-

d-1---3-4-5-

a-o-----3---

a-----3---5-

e---1-2-3---

e-1-2-3---5-

c d f g a ab c#

c d f g a ab c#

e---1---3-4-

e-1---3-4-5-

b---1-2-3---

b-1-2-3-----

g-o-1-2-----

g-1-2-------

d-o-----3---

d-----3---5-

a-o-----3-4-

a-----3-4-5-

e---1---3-4-

e-1---3-4-5-

c d f g a ab f#

c d f g a ab f#

e---1-2-3-4-

e-1-2-3-4-5-

b---1---3---

b-1---3-----

g-o-1-2-----

g-1-2-------

d-o-----3-4-

d-----3-4-5-

a-o-----3---

a-----3---5-

e---1-2-3-4-

e-1-2-3-4-5-

c d f g a c# f#

c d f g a c# f#

e---1-2-3---

e-1-2-3---5-

b---1-2-3---

b-1-2-3-----

g-o---2-----

g---2-------

d-o-----3-4-

d-----3-4-5-

a-o-----3-4-

a-----3-4-5-

e---1-2-3---

e-1-2-3---5-

c d f g b bb eb

c d f g b bb eb

e---1---3---

e-1---3-----

b-o-1---3-4-

b-1---3-4---

g-o-----3---

g-----3-4---

d-o-1---3---

d-1---3---5-

a---1-2-3---

a-1-2-3---5-

e---1---3---

e-1---3-----

c d f g b bb ab

c d f g b bb ab

e---1---3-4-

e-1---3-4---

b-o-1---3---

b-1---3-----

g-o-1---3---

g-1---3-4---

d-o-----3---

d-----3---5-

a---1-2-3---

a-1-2-3---5-

e---1---3-4-

e-1---3-4---

c d f g b bb c#

c d f g b bb c#

e---1---3---

e-1---3-----

b-o-1-2-3---

b-1-2-3-----

g-o-----3---

g-----3-4---

d-o-----3---

d-----3---5-

a---1-2-3-4-

a-1-2-3-4-5-

e---1---3---

e-1---3-----

c d f g b bb f#

c d f g b bb f#

e---1-2-3---

e-1-2-3-----

b-o-1---3---

b-1---3-----

g-o-----3---

g-----3-4---

d-o-----3-4-

d-----3-4-5-

a---1-2-3---

a-1-2-3---5-

e---1-2-3---

e-1-2-3-----

c d f g b eb ab

c d f g b eb ab

e---1---3-4-

e-1---3-4---

b-o-1---3-4-

b-1---3-4---

g-o-1-------

g-1-----4---

d-o-1---3---

d-1---3---5-

a-----2-3---

a---2-3---5-

e---1---3-4-

e-1---3-4---

c d f g b eb c#

c d f g b eb c#

e---1---3---

e-1---3-----

b-o-1-2-3-4-

b-1-2-3-4---

g-o---------

g-------4---

d-o-1---3---

d-1---3---5-

a-----2-3-4-

a---2-3-4-5-

e---1---3---

e-1---3-----

c d f g b eb f#

c d f g b eb f#

e---1-2-3---

e-1-2-3-----

b-o-1---3-4-

b-1---3-4---

g-o---------

g-------4---

d-o-1---3-4-

d-1---3-4-5-

a-----2-3---

a---2-3---5-

e---1-2-3---

e-1-2-3-----

c d f g b ab c#

c d f g b ab c#

e---1---3-4-

e-1---3-4---

b-o-1-2-3---

b-1-2-3-----

g-o-1-------

g-1-----4---

d-o-----3---

d-----3---5-

a-----2-3-4-

a---2-3-4-5-

e---1---3-4-

e-1---3-4---

c d f g b ab f#

c d f g b ab f#

e---1-2-3-4-

e-1-2-3-4---

b-o-1---3---

b-1---3-----

g-o-1-------

g-1-----4---

d-o-----3-4-

d-----3-4-5-

a-----2-3---

a---2-3---5-

e---1-2-3-4-

e-1-2-3-4---

c d f g b c# f#

c d f g b c# f#

e---1-2-3---

e-1-2-3-----

b-o-1-2-3---

b-1-2-3-----

g-o---------

g-------4---

d-o-----3-4-

d-----3-4-5-

a-----2-3-4-

a---2-3-4-5-

e---1-2-3---

e-1-2-3-----

c d f g bb eb ab

c d f g bb eb ab

e---1---3-4-

e-1---3-4---

b---1---3-4-

b-1---3-4---

g-o-1---3---

g-1---3-----

d-o-1---3---

d-1---3---5-

a---1---3---

a-1---3---5-

e---1---3-4-

e-1---3-4---

c d f g bb eb c#

c d f g bb eb c#

e---1---3---

e-1---3-----

b---1-2-3-4-

b-1-2-3-4---

g-o-----3---

g-----3-----

d-o-1---3---

d-1---3---5-

a---1---3-4-

a-1---3-4-5-

e---1---3---

e-1---3-----

c d f g bb eb f#

c d f g bb eb f#

e---1-2-3---

e-1-2-3-----

b---1---3-4-

b-1---3-4---

g-o-----3---

g-----3-----

d-o-1---3-4-

d-1---3-4-5-

a---1---3---

a-1---3---5-

e---1-2-3---

e-1-2-3-----

c d f g bb ab c#

c d f g bb ab c#

e---1---3-4-

e-1---3-4---

b---1-2-3---

b-1-2-3-----

g-o-1---3---

g-1---3-----

d-o-----3---

d-----3---5-

a---1---3-4-

a-1---3-4-5-

e---1---3-4-

e-1---3-4---

c d f g bb ab f#

c d f g bb ab f#

e---1-2-3-4-

e-1-2-3-4---

b---1---3---

b-1---3-----

g-o-1---3---

g-1---3-----

d-o-----3-4-

d-----3-4-5-

a---1---3---

a-1---3---5-

e---1-2-3-4-

e-1-2-3-4---

c d f g bb c# f#

c d f g bb c# f#

e---1-2-3---

e-1-2-3-----

b---1-2-3---

b-1-2-3-----

g-o-----3---

g-----3-----

d-o-----3-4-

d-----3-4-5-

a---1---3-4-

a-1---3-4-5-

e---1-2-3---

e-1-2-3-----

c d f g eb ab c#

c d f g eb ab c#

e---1---3-4-

e-1---3-4---

b---1-2-3-4-

b-1-2-3-4---

g-o-1-------

g-1---------

d-o-1---3---

d-1---3---5-

a-------3-4-

a-----3-4-5-

e---1---3-4-

e-1---3-4---

c d f g eb ab f#

c d f g eb ab f#

e---1-2-3-4-

e-1-2-3-4---

b---1---3-4-

b-1---3-4---

g-o-1-------

g-1---------

d-o-1---3-4-

d-1---3-4-5-

a-------3---

a-----3---5-

e---1-2-3-4-

e-1-2-3-4---

c d f g eb c# f#

c d f g eb c# f#

e---1-2-3---

e-1-2-3-----

b---1-2-3-4-

b-1-2-3-4---

g-o---------

g-----------

d-o-1---3-4-

d-1---3-4-5-

a-------3-4-

a-----3-4-5-

e---1-2-3---

e-1-2-3-----

c d f g ab c# f#

c d f g ab c# f#

e---1-2-3-4-

e-1-2-3-4---

b---1-2-3---

b-1-2-3-----

g-o-1-------

g-1---------

d-o-----3-4-

d-----3-4-5-

a-------3-4-

a-----3-4-5-

e---1-2-3-4-

e-1-2-3-4---

c d f a b bb eb

c d f a b bb eb

e---1-------

e-1-------5-

b-o-1---3-4-

b-1---3-4---

g-----2-3---

g---2-3-4---

d-o-1---3---

d-1---3-----

a-o-1-2-3---

a-1-2-3---5-

e---1-------

e-1-------5-

c d f a b bb ab

c d f a b bb ab

e---1-----4-

e-1-----4-5-

b-o-1---3---

b-1---3-----

g---1-2-3---

g-1-2-3-4---

d-o-----3---

d-----3-----

a-o-1-2-3---

a-1-2-3---5-

e---1-----4-

e-1-----4-5-

c d f a b bb c#

c d f a b bb c#

e---1-------

e-1-------5-

b-o-1-2-3---

b-1-2-3-----

g-----2-3---

g---2-3-4---

d-o-----3---

d-----3-----

a-o-1-2-3-4-

a-1-2-3-4-5-

e---1-------

e-1-------5-

c d f a b bb f#

c d f a b bb f#

e---1-2-----

e-1-2-----5-

b-o-1---3---

b-1---3-----

g-----2-3---

g---2-3-4---

d-o-----3-4-

d-----3-4---

a-o-1-2-3---

a-1-2-3---5-

e---1-2-----

e-1-2-----5-

c d f a b eb ab

c d f a b eb ab

e---1-----4-

e-1-----4-5-

b-o-1---3-4-

b-1---3-4---

g---1-2-----

g-1-2---4---

d-o-1---3---

d-1---3-----

a-o---2-3---

a---2-3---5-

e---1-----4-

e-1-----4-5-

c d f a b eb c#

c d f a b eb c#

e---1-------

e-1-------5-

b-o-1-2-3-4-

b-1-2-3-4---

g-----2-----

g---2---4---

d-o-1---3---

d-1---3-----

a-o---2-3-4-

a---2-3-4-5-

e---1-------

e-1-------5-

c d f a b eb f#

c d f a b eb f#

e---1-2-----

e-1-2-----5-

b-o-1---3-4-

b-1---3-4---

g-----2-----

g---2---4---

d-o-1---3-4-

d-1---3-4---

a-o---2-3---

a---2-3---5-

e---1-2-----

e-1-2-----5-

c d f a b ab c#

c d f a b ab c#

e---1-----4-

e-1-----4-5-

b-o-1-2-3---

b-1-2-3-----

g---1-2-----

g-1-2---4---

d-o-----3---

d-----3-----

a-o---2-3-4-

a---2-3-4-5-

e---1-----4-

e-1-----4-5-

c d f a b ab f#

c d f a b ab f#

e---1-2---4-

e-1-2---4-5-

b-o-1---3---

b-1---3-----

g---1-2-----

g-1-2---4---

d-o-----3-4-

d-----3-4---

a-o---2-3---

a---2-3---5-

e---1-2---4-

e-1-2---4-5-

c d f a b c# f#

c d f a b c# f#

e---1-2-----

e-1-2-----5-

b-o-1-2-3---

b-1-2-3-----

g-----2-----

g---2---4---

d-o-----3-4-

d-----3-4---

a-o---2-3-4-

a---2-3-4-5-

e---1-2-----

e-1-2-----5-

c d f a bb eb ab

c d f a bb eb ab

e---1-----4-

e-1-----4-5-

b---1---3-4-

b-1---3-4---

g---1-2-3---

g-1-2-3-----

d-o-1---3---

d-1---3-----

a-o-1---3---

a-1---3---5-

e---1-----4-

e-1-----4-5-

c d f a bb eb c#

c d f a bb eb c#

e---1-------

e-1-------5-

b---1-2-3-4-

b-1-2-3-4---

g-----2-3---

g---2-3-----

d-o-1---3---

d-1---3-----

a-o-1---3-4-

a-1---3-4-5-

e---1-------

e-1-------5-

c d f a bb eb f#

c d f a bb eb f#

e---1-2-----

e-1-2-----5-

b---1---3-4-

b-1---3-4---

g-----2-3---

g---2-3-----

d-o-1---3-4-

d-1---3-4---

a-o-1---3---

a-1---3---5-

e---1-2-----

e-1-2-----5-

c d f a bb ab c#

c d f a bb ab c#

e---1-----4-

e-1-----4-5-

b---1-2-3---

b-1-2-3-----

g---1-2-3---

g-1-2-3-----

d-o-----3---

d-----3-----

a-o-1---3-4-

a-1---3-4-5-

e---1-----4-

e-1-----4-5-

c d f a bb ab f#

c d f a bb ab f#

e---1-2---4-

e-1-2---4-5-

b---1---3---

b-1---3-----

g---1-2-3---

g-1-2-3-----

d-o-----3-4-

d-----3-4---

a-o-1---3---

a-1---3---5-

e---1-2---4-

e-1-2---4-5-

c d f a bb c# f#

c d f a bb c# f#

e---1-2-----

e-1-2-----5-

b---1-2-3---

b-1-2-3-----

g-----2-3---

g---2-3-----

d-o-----3-4-

d-----3-4---

a-o-1---3-4-

a-1---3-4-5-

e---1-2-----

e-1-2-----5-

c d f a eb ab c#

c d f a eb ab c#

e---1-----4-

e-1-----4-5-

b---1-2-3-4-

b-1-2-3-4---

g---1-2-----

g-1-2-------

d-o-1---3---

d-1---3-----

a-o-----3-4-

a-----3-4-5-

e---1-----4-

e-1-----4-5-

c d f a eb ab f#

c d f a eb ab f#

e---1-2---4-

e-1-2---4-5-

b---1---3-4-

b-1---3-4---

g---1-2-----

g-1-2-------

d-o-1---3-4-

d-1---3-4---

a-o-----3---

a-----3---5-

e---1-2---4-

e-1-2---4-5-

c d f a eb c# f#

c d f a eb c# f#

e---1-2-----

e-1-2-----5-

b---1-2-3-4-

b-1-2-3-4---

g-----2-----

g---2-------

d-o-1---3-4-

d-1---3-4---

a-o-----3-4-

a-----3-4-5-

e---1-2-----

e-1-2-----5-

c d f a ab c# f#

c d f a ab c# f#

e---1-2---4-

e-1-2---4-5-

b---1-2-3---

b-1-2-3-----

g---1-2-----

g-1-2-------

d-o-----3-4-

d-----3-4---

a-o-----3-4-

a-----3-4-5-

e---1-2---4-

e-1-2---4-5-

c d f b bb eb ab

c d f b bb eb ab

e---1-----4-

e-1-----4---

b-o-1---3-4-

b-1---3-4---

g---1---3---

g-1---3-4---

d-o-1---3---

d-1---3-----

a---1-2-3---

a-1-2-3---5-

e---1-----4-

e-1-----4---

c d f b bb eb c#

c d f b bb eb c#

e---1-------

e-1---------

b-o-1-2-3-4-

b-1-2-3-4---

g-------3---

g-----3-4---

d-o-1---3---

d-1---3-----

a---1-2-3-4-

a-1-2-3-4-5-

e---1-------

e-1---------

c d f b bb eb f#

c d f b bb eb f#

e---1-2-----

e-1-2-------

b-o-1---3-4-

b-1---3-4---

g-------3---

g-----3-4---

d-o-1---3-4-

d-1---3-4---

a---1-2-3---

a-1-2-3---5-

e---1-2-----

e-1-2-------

c d f b bb ab c#

c d f b bb ab c#

e---1-----4-

e-1-----4---

b-o-1-2-3---

b-1-2-3-----

g---1---3---

g-1---3-4---

d-o-----3---

d-----3-----

a---1-2-3-4-

a-1-2-3-4-5-

e---1-----4-

e-1-----4---

c d f b bb ab f#

c d f b bb ab f#

e---1-2---4-

e-1-2---4---

b-o-1---3---

b-1---3-----

g---1---3---

g-1---3-4---

d-o-----3-4-

d-----3-4---

a---1-2-3---

a-1-2-3---5-

e---1-2---4-

e-1-2---4---

c d f b bb c# f#

c d f b bb c# f#

e---1-2-----

e-1-2-------

b-o-1-2-3---

b-1-2-3-----

g-------3---

g-----3-4---

d-o-----3-4-

d-----3-4---

a---1-2-3-4-

a-1-2-3-4-5-

e---1-2-----

e-1-2-------

c d f b eb ab c#

c d f b eb ab c#

e---1-----4-

e-1-----4---

b-o-1-2-3-4-

b-1-2-3-4---

g---1-------

g-1-----4---

d-o-1---3---

d-1---3-----

a-----2-3-4-

a---2-3-4-5-

e---1-----4-

e-1-----4---

c d f b eb ab f#

c d f b eb ab f#

e---1-2---4-

e-1-2---4---

b-o-1---3-4-

b-1---3-4---

g---1-------

g-1-----4---

d-o-1---3-4-

d-1---3-4---

a-----2-3---

a---2-3---5-

e---1-2---4-

e-1-2---4---

c d f b eb c# f#

c d f b eb c# f#

e---1-2-----

e-1-2-------

b-o-1-2-3-4-

b-1-2-3-4---

g-----------

g-------4---

d-o-1---3-4-

d-1---3-4---

a-----2-3-4-

a---2-3-4-5-

e---1-2-----

e-1-2-------

c d f b ab c# f#

c d f b ab c# f#

e---1-2---4-

e-1-2---4---

b-o-1-2-3---

b-1-2-3-----

g---1-------

g-1-----4---

d-o-----3-4-

d-----3-4---

a-----2-3-4-

a---2-3-4-5-

e---1-2---4-

e-1-2---4---

c d f bb eb ab c#

c d f bb eb ab c#

e---1-----4-

e-1-----4---

b---1-2-3-4-

b-1-2-3-4---

g---1---3---

g-1---3-----

d-o-1---3---

d-1---3-----

a---1---3-4-

a-1---3-4-5-

e---1-----4-

e-1-----4---

c d f bb eb ab f#

c d f bb eb ab f#

e---1-2---4-

e-1-2---4---

b---1---3-4-

b-1---3-4---

g---1---3---

g-1---3-----

d-o-1---3-4-

d-1---3-4---

a---1---3---

a-1---3---5-

e---1-2---4-

e-1-2---4---

c d f bb eb c# f#

c d f bb eb c# f#

e---1-2-----

e-1-2-------

b---1-2-3-4-

b-1-2-3-4---

g-------3---

g-----3-----

d-o-1---3-4-

d-1---3-4---

a---1---3-4-

a-1---3-4-5-

e---1-2-----

e-1-2-------

c d f bb ab c# f#

c d f bb ab c# f#

e---1-2---4-

e-1-2---4---

b---1-2-3---

b-1-2-3-----

g---1---3---

g-1---3-----

d-o-----3-4-

d-----3-4---

a---1---3-4-

a-1---3-4-5-

e---1-2---4-

e-1-2---4---

c d f eb ab c# f#

c d f eb ab c# f#

e---1-2---4-

e-1-2---4---

b---1-2-3-4-

b-1-2-3-4---

g---1-------

g-1---------

d-o-1---3-4-

d-1---3-4---

a-------3-4-

a-----3-4-5-

e---1-2---4-

e-1-2---4---

c d g a b bb eb

c d g a b bb eb

e-------3---

e-----3---5-

b-o-1---3-4-

b-1---3-4---

g-o---2-3---

g---2-3-4---

d-o-1-------

d-1-------5-

a-o-1-2-3---

a-1-2-3---5-

e-------3---

e-----3---5-

c d g a b bb ab

c d g a b bb ab

e-------3-4-

e-----3-4-5-

b-o-1---3---

b-1---3-----

g-o-1-2-3---

g-1-2-3-4---

d-o---------

d---------5-

a-o-1-2-3---

a-1-2-3---5-

e-------3-4-

e-----3-4-5-

c d g a b bb c#

c d g a b bb c#

e-------3---

e-----3---5-

b-o-1-2-3---

b-1-2-3-----

g-o---2-3---

g---2-3-4---

d-o---------

d---------5-

a-o-1-2-3-4-

a-1-2-3-4-5-

e-------3---

e-----3---5-

c d g a b bb f#

c d g a b bb f#

e-----2-3---

e---2-3---5-

b-o-1---3---

b-1---3-----

g-o---2-3---

g---2-3-4---

d-o-------4-

d-------4-5-

a-o-1-2-3---

a-1-2-3---5-

e-----2-3---

e---2-3---5-

c d g a b eb ab

c d g a b eb ab

e-------3-4-

e-----3-4-5-

b-o-1---3-4-

b-1---3-4---

g-o-1-2-----

g-1-2---4---

d-o-1-------

d-1-------5-

a-o---2-3---

a---2-3---5-

e-------3-4-

e-----3-4-5-

c d g a b eb c#

c d g a b eb c#

e-------3---

e-----3---5-

b-o-1-2-3-4-

b-1-2-3-4---

g-o---2-----

g---2---4---

d-o-1-------

d-1-------5-

a-o---2-3-4-

a---2-3-4-5-

e-------3---

e-----3---5-

c d g a b eb f#

c d g a b eb f#

e-----2-3---

e---2-3---5-

b-o-1---3-4-

b-1---3-4---

g-o---2-----

g---2---4---

d-o-1-----4-

d-1-----4-5-

a-o---2-3---

a---2-3---5-

e-----2-3---

e---2-3---5-

c d g a b ab c#

c d g a b ab c#

e-------3-4-

e-----3-4-5-

b-o-1-2-3---

b-1-2-3-----

g-o-1-2-----

g-1-2---4---

d-o---------

d---------5-

a-o---2-3-4-

a---2-3-4-5-

e-------3-4-

e-----3-4-5-

c d g a b ab f#

c d g a b ab f#

e-----2-3-4-

e---2-3-4-5-

b-o-1---3---

b-1---3-----

g-o-1-2-----

g-1-2---4---

d-o-------4-

d-------4-5-

a-o---2-3---

a---2-3---5-

e-----2-3-4-

e---2-3-4-5-

c d g a b c# f#

c d g a b c# f#

e-----2-3---

e---2-3---5-

b-o-1-2-3---

b-1-2-3-----

g-o---2-----

g---2---4---

d-o-------4-

d-------4-5-

a-o---2-3-4-

a---2-3-4-5-

e-----2-3---

e---2-3---5-

c d g a bb eb ab

c d g a bb eb ab

e-------3-4-

e-----3-4-5-

b---1---3-4-

b-1---3-4---

g-o-1-2-3---

g-1-2-3-----

d-o-1-------

d-1-------5-

a-o-1---3---

a-1---3---5-

e-------3-4-

e-----3-4-5-

c d g a bb eb c#

c d g a bb eb c#

e-------3---

e-----3---5-

b---1-2-3-4-

b-1-2-3-4---

g-o---2-3---

g---2-3-----

d-o-1-------

d-1-------5-

a-o-1---3-4-

a-1---3-4-5-

e-------3---

e-----3---5-

c d g a bb eb f#

c d g a bb eb f#

e-----2-3---

e---2-3---5-

b---1---3-4-

b-1---3-4---

g-o---2-3---

g---2-3-----

d-o-1-----4-