Pattern Obsession and Music Weaving

User Supported        

(This is a very large page and the links below to the sections do not all work until the page is fully loaded. Scrolling works right away.)

Scale Weaves

One-Note Weaves

Two-Note Weaves

Inversions

Arpeggio Weaving

Four-note Arpeggios

Harmonic and Melodic

Other Modal Arpeggios

Working up the Neck

Parallel Modes

Open Position Seventh Arpeggios in Other Keys

Ninth, Eleventh, and Thirteenth Chords

Quartal and Quintal Arpeggios

Symmetrical Arpeggios

Conclusion

Scale Weaves

Alternating a tone or group of tones with the notes from the larger pattern so that all possible intervals get played.

 

One-Note Weaves

Once the scale is ready, weaving in noted develops the ability to play any interval in any scale. Just alternate any note with each scale tone successively.

 

Start with the root

 

e---------------------------------------------------------2---3---5---5---3---2----------------------------------------------------

b-------------------------------------------------3---5---------------------------5---3--------------------------------------------

g-------------------------------------2---4---5-------------------------------------------5---4---2--------------------------------

d-------------------------2---4---5-------------------------------------------------------------------5---4---2--------------------

a-------------2---3---5-------------------------------------------------------------------------------------------5---3---2--------

e---3-3-3-5-3---3---3---3---3---3---3---3---3---3---3---3---3---3---3---3---3---3---3---3---3---3---3---3---3---3---3---3---3-5-3-3

 

Then Off the 5th scale degree

 

e---------------------------------------------------------2---3---5---5---3---2----------------------------------------------------

b-------------------------------------------------3---5---------------------------5---3--------------------------------------------

g-------------------------------------2---4---5-------------------------------------------5---4---2--------------------------------

d-------------------------2---4---5-------------------------------------------------------------------5---4---2--------------------

a---5---5---5-2-5-3-5-5-5---5---5---5---5---5---5---5---5---5---5---5---5---5---5---5---5---5---5---5---5---5---5-5-5-3-5-2-5---5--

e-----3---5-------------------------------------------------------------------------------------------------------------------5---3

 

And then off every other note. See the document Scale Weaves Single Notes exercise for the full tablature for

All notes.

 

The same types of patterns hold for any scale. Just pick a note and weave it into the pattern.

 

Two-Note Weaves

Once one note weaves are fluid, begin adding a second note to the weave.

 

Off scale degrees 1 and 5

 

e-----------------------------------------------------------------------------------2-----3-----5-----5-----3-----2----------------------------

b-----------------------------------------------------------------------3-----5-----------------------------------------5-----3----------------

g-----------------------------------------------------2-----4-----5-----------------------------------------------------------------5-----4----

d-----------------------------------2-----4-----5----------------------------------------------------------------------------------------------

a---5-----5-----5-2---5-3---5-5---5-----5-----5-----5-----5-----5-----5-----5-----5-----5-----5-----5-----5-----5-----5-----5-----5-----5-----5

e-3---3-3---5-3-----3-----3-----3-----3-----3-----3-----3-----3-----3-----3-----3-----3-----3-----3-----3-----3-----3-----3-----3-----3-----3--

 

the rest of this example and several other two note weaves are in the Scale Weaves Two Note support document. This scale would have 120 possible two note weaves. Two note weaves are a transitional step to prepare for three note weaves and arpeggios, so the document contains only a select number of examples, based on two notes from triads.

 

Adding a third note to the weave leads to 520 different possibilities. The weaves in the document Scale Weaves Three Notes contain those weaves with three notes that are the basis of the diatonic chords, shown here for the I chord, G.

 

 

e-----------------------------------------------------------------------------------------------------------------2-------3-------5-------5-------3-------2-----------------------

b-------------------------------------------------------------------------------------------------3-------5-------------------------------------------------------5-------3-------

g-------------------------------------------------------------------------2-------4-------5---------------------------------------------------------------------------------------

d-------------------------------------------------2-------4-------5---------------------------------------------------------------------------------------------------------------

a-----2-5-----2-5-----2-5-2---2-5-3---2-5-5---2-5-----2-5-----2-5-----2-5-----2-5-----2-5-----2-5-----2-5-----2-5-----2-5-----2-5-----2-5-----2-5-----2-5-----2-5-----2-5-----2-5-

e---3-----3-3-----5-3-------3-------3-------3-------3-------3-------3-------3-------3-------3-------3-------3-------3-------3-------3-------3-------3-------3-------3-------3-----

 

Then inversions of the I chord

 

e-----------------------------------------------------------------------------------------------------------------2-------3-------5-------5-------3-------2------------------------

b-------------------------------------------------------------------------------------------------3-------5-------------------------------------------------------5-------3--------

g-------------------------------------------------------------------------2-------4-------5---------------------------------------------------------------------------------------5

d-------5-------5-------5-------5-------5-------5-2-----5-4-----5-5-----5-------5-------5-------5-------5-------5-------5-------5-------5-------5-------5-------5-------5-------5--

a---2-5-----2-5-----2-5---2-2-5---3-2-5---5-2-5-----2-5-----2-5-----2-5-----2-5-----2-5-----2-5-----2-5-----2-5-----2-5-----2-5-----2-5-----2-5-----2-5-----2-5-----2-5-----2-5----

e---------3-------5----------------------------------------------------------------------------------------------------------------------------------------------------------------

 

Then the ii chord (Am) with inversions

 

 

e-----------------------------------------------------------------------------------------------------------------2-------3-------5-------5-------3-------2

b-------------------------------------------------------------------------------------------------3-------5-------------------------------------------------------5-------3

g-------------------------------------------------------------------------2-------4-------5---------------------------------------------------------------------------------------5

d-------2-------2-------2-------2-------2-------2-2-----2-4-----2-5-----2-------2-------2-------2-------2-------2-------2-------2-------2-------2-------2-------2-------2-------2--

a-----3-------3-------3---2---3---3---3---5---3-------3-------3-------3-------3-------3-------3-------3-------3-------3-------3-------3-------3-------3-------3-------3-------3----

e---5-----3-5-----5-5-------5-------5-------5-------5-------5-------5-------5-------5-------5-------5-------5-------5-------5-------5-------5-------5-------5-------5-------5------

 

And all the way up to the viio chord with inversions.

 

 

Inversions

To see each of the possible arrangements of consecutive three note patterns (arpeggios) refer to the document Arpeggios Triads with Arrangements.

A few examples of the I chord include

 

 

I

 

 

 

 

 

 

 

 

 

 

 

 

 

 

 

 

 

 

 

 

 

 

 

 

 

 

 

 

 

 

 

 

 

 

 

 

e

-

-

-

-

 

e

-

-

-

-

 

e

-

-

-

-

 

e

-

-

-

-

 

e

-

-

-

-

 

e

-

-

-

-

 

b

-

-

-

-

 

b

-

-

-

-

 

b

-

-

-

-

 

b

-

-

-

-

 

b

-

-

-

-

 

b

-

-

-

-

 

g

-

-

-

-

 

g

-

-

-

-

 

g

-

-

-

-

 

g

-

-

-

-

 

g

-

-

-

-

 

g

-

-

-

-

 

d

-

-

-

-

 

d

-

-

-

-

 

d

-

-

-

-

 

d

-

-

-

-

 

d

-

-

-

-

 

d

-

-

-

-

 

a

-

-

2

5

 

a

-

-

5

2

 

a

-

2

-

5

 

a

-

2

5

-

 

a

-

5

-

2

 

a

-

5

2

-

 

e

-

3

-

-

 

e

-

3

-

-

 

e

-

-

3

-

 

e

-

-

-

3

 

e

-

-

3

-

 

e

-

-

-

3

 

 

 

 

 

 

 

 

 

 

 

 

 

 

 

 

 

 

 

 

 

 

 

 

 

 

 

 

 

 

 

 

 

 

 

 

 

e

-

-

-

-

 

e

-

-

-

-

 

e

-

-

-

-

 

e

-

-

-

-

 

e

-

-

-

-

 

e

-

-

-

-

 

b

-

-

-

-

 

b

-

-

-

-

 

b

-

-

-

-

 

b

-

-

-

-

 

b

-

-

-

-

 

b

-

-

-

-

 

g

-

-

-

-

 

g

-

-

-

-

 

g

-

-

-

-

 

g

-

-

-

-

 

g

-

-

-

-

 

g

-

-

-

-

 

d

-

-

-

5

 

d

-

-

5

-

 

d

-

-

-

5

 

d

-

-

5

-

 

d

-

5

-

-

 

d

-

5

-

-

 

a

-

2

5

-

 

a

-

2

-

5

 

a

-

5

2

-

 

a

-

5

-

2

 

a

-

-

2

5

 

a

-

-

5

2

 

e

-

-

-

-

 

e

-

-

-

-

 

e

-

-

-

-

 

e

-

-

-

-

 

e

-

-

-

-

 

e

-

-

-

-

 

 

 

 

 

 

 

 

 

 

 

 

 

 

 

 

 

 

 

 

 

 

 

 

 

 

 

 

 

 

 

 

 

 

 

 

 

e

-

-

-

-

 

e

-

-

-

-

 

e

-

-

-

-

 

e

-

-

-

-

 

e

-

-

-

-

 

e

-

-

-

-

 

b

-

-

-

-

 

b

-

-

-

-

 

b

-

-

-

-

 

b

-

-

-

-

 

b

-

-

-

-

 

b

-

-

-

-

 

g

-

-

-

-

 

g

-

-

-

-

 

g

-

-

-

-

 

g

-

-

-

-

 

g

-

-

-

-

 

g

-

-

-

-

 

d

-

-

5

5

 

d

-

-

5

5

 

d

-

5

-

5

 

d

-

5

5

-

 

d

-

5

-

5

 

d

-

5

5

-

 

a

-

5

-

-

 

a

-

5

-

-

 

a

-

-

5

-

 

a

-

-

-

5

 

a

-

-

5

-

 

a

-

-

-

5

 

e

-

-

-

-

 

e

-

-

-

-

 

e

-

-

-

-

 

e

-

-

-

-

 

e

-

-

-

-

 

e

-

-

-

-

 

And so on.

Arpeggio Weaving

 

Instead of continuing with four note weaves into a single scale, consider each arpeggio to be a single unit. Instead of a scale, use a set of the arpeggios that follow the scale as a basic pattern

 

Basic Pattern

 

 

 

 

 

 

 

 

 

 

 

 

 

 

 

 

 

 

 

 

 

 

 

 

 

 

 

 

 

 

 

 

 

 

e

-

-

-

-

-

-

-

-

-

-

-

-

-

-

-

-

-

-

-

-

-

-

-

-

-

-

-

-

-

-

2

-

-

3

-

2

5

b

-

-

-

-

-

-

-

-

-

-

-

-

-

-

-

-

-

-

-

-

-

 

-

-

3

-

 

5

-

3

-

 

5

-

3

-

-

g

-

-

-

-

-

-

-

-

-

-

-

-

-

-

-

2

-

-

4

-

2

5

-

4

 

2

5

-

4

-

-

5

-

-

-

-

-

d

-

-

-

-

-

-

2

-

5

4

-

2

5

-

4

-

2

5

-

4

-

-

5

 

-

-

-

-

-

-

-

-

-

-

-

-

-

a

-

-

2

5

-

3

-

2

-

-

3

-

-

5

-

-

-

-

-

-

-

-

-

-

-

-

-

-

-

-

-

-

-

-

-

-

-

e

-

3

-

-

5

-

-

-

-

-

-

-

-

-

-

-

-

-

-

-

-

-

-

-

-

-

-

-

-

-

-

-

-

-

-

-

-

 

e

-

3

-

-

2

-

-

-

-

-

-

-

-

-

-

-

-

-

-

-

-

-

-

-

-

-

-

-

-

-

-

-

-

-

-

-

-

b

-

-

5

 

-

3

-

5

-

-

3

-

-

-

-

-

-

-

-

-

-

-

-

-

-

-

-

-

-

-

-

-

-

-

-

-

-

g

-

-

-

5

-

-

4

-

5

2

-

4

-

5

2

-

4

-

-

2

-

-

-

-

-

-

-

-

-

-

-

-

-

-

-

-

-

d

-

-

-

-

-

-

-

-

-

-

-

-

5

-

-

4

-

5

2

-

4

-

5

2

-

4

 

-

2

-

-

-

-

-

-

-

-

a

-

-

-

-

-

-

-

-

-

-

-

-

-

-

-

-

-

-

-

-

-

5

-

-

3

-

5

2

-

3

-

5

2

-

3

-

-

e

-

-

-

-

-

-

-

-

-

-

-

-

-

-

-

-

-

-

-

-

-

-

-

-

-

-

-

-

-

-

5

-

-

3

-

5

2

 

And weave each of these arpeggios into the others in the same process as single note weaves, only with arpeggios.

 

e

-

-

-

-

-

-

-

-

-

-

-

-

-

-

-

-

-

-

-

-

-

-

-

-

-

-

-

-

-

-

-

-

-

-

-

-

-

b

-

-

-

-

-

-

-

-

-

-

-

-

-

-

-

-

-

-

-

-

-

-

-

-

-

-

-

-

-

-

-

-

-

-

-

-

-

g

-

-

-

-

-

-

-

-

-

-

-

-

-

-

-

-

-

-

-

-

-

-

-

-

2

-

-

-

-

-

4

-

-

-

-

2

5

d

-

-

-

-

-

-

2

-

-

-

-

5

4

-

-

-

-

2

5

-

-

-

-

4

-

-

-

-

2

5

-

-

-

-

4

-

-

a

-

-

2

5

-

3

-

-

2

5

2

-

-

-

2

5

3

-

-

-

2

5

5

-

-

-

2

5

-

-

-

-

2

5

-

-

-

e

-

3

-

-

5

-

-

3

-

-

-

-

-

3

-

-

-

-

-

3

-

-

-

-

-

3

-

-

-

-

-

3

-

-

-

-

-

 

The document Arpeggio Weaves Triads shown the arpeggio groups for all the inversions of the diatonic triads

weaved into the basic patterns. Adding arrangements of these notes from the Arpeggios Triads with Arrangements exercise would produce more patterns.

 

Four-note Arpeggios

The most useful of the arpeggio weaving exercises is the ability to play four note patterns that outline the seventh chords. Adding a fourth note the previous weaves yields this basic pattern

 

e

-

-

-

-

-

-

-

-

-

-

-

-

-

-

-

-

-

-

-

-

-

-

-

-

-

-

-

-

-

-

-

-

-

-

-

-

2

-

-

-

3

-

-

2

5

b

-

-

-

-

-

-

-

-

-

-

-

-

-

-

-

-

-

-

-

-

-

-

-

-

-

-

-

-

3

-

-

-

5

-

-

3

-

-

-

5

-

-

3

-

-

g

-

-

-

-

-

-

-

-

-

-

-

-

-

-

-

-

2

-

-

-

4

-

-

2

5

-

-

4

-

-

2

5

-

-

4

-

-

2

5

-

-

4

-

-

-

d

-

-

-

-

2

-

-

-

4

-

-

2

5

-

-

4

-

-

2

5

-

-

4

-

-

2

5

-

-

4

-

-

-

5

-

-

-

-

-

-

-

-

-

-

-

a

-

-

-

3

-

-

2

5

-

-

3

-

-

2

5

-

-

3

-

-

-

5

-

-

-

-

-

-

-

-

-

-

-

-

-

-

-

-

-

-

-

-

-

-

-

e

-

2

5

-

-

3

-

-

-

5

-

-

-

-

-

-

-

-

-

-

-

-

-

-

-

-

-

-

-

-

-

-

-

-

-

-

-

-

-

-

-

-

-

-

-

 

Produces a weave pattern that includes

 

e

-

-

-

-

-

-

-

-

-

-

-

-

-

-

-

-

-

-

-

-

-

-

-

-

-

-

-

-

-

-

-

-

-

-

-

-

-

-

-

-

-

-

-

-

-

-

-

-

-

b

-

-

-

-

-

-

-

-

-

-

-

-

-

-

-

-

-

-

-

-

-

-

-

-

-

-

-

-

-

-

-

-

-

-

-

-

-

-

-

-

-

-

-

-

-

-

-

-

3

g

-

-

-

-

-

-

-

-

-

-

-

-

-

-

-

-

-

-

-

-

-

-

-

-

2

-

-

-

-

-

-

-

4

-

-

-

-

-

-

2

5

-

-

-

-

-

-

4

-

d

-

-

-

-

2

-

-

-

4

-

-

-

2

-

-

2

5

-

-

-

2

-

-

4

-

-

-

-

2

-

2

5

-

-

-

-

2

-

4

-

-

-

-

-

2

2

5

-

-

a

-

-

-

3

-

-

2

5

-

-

-

3

-

-

3

-

-

-

-

3

-

2

5

-

-

-

-

3

-

3

-

-

-

-

-

3

-

5

-

-

-

-

-

3

-

-

-

-

-

e

-

2

5

-

-

3

-

-

-

2

5

-

-

5

-

-

-

2

5

-

-

-

-

-

-

2

5

-

-

-

-

-

-

2

5

-

-

-

-

-

-

2

5

-

-

-

-

-

-

 

And so on

 

This complete set is in the document Arpeggio Weaves Sevenths Locrean.

Harmonic and Melodic

 

To produce harmonic and melodic versions, just adjust the appropriate scale degree. In E Minor, raise the d to d#.

 

Harmonic

 

e

-

-

-

-

-

-

-

-

-

-

-

-

-

-

-

-

-

-

-

-

-

-

-

-

-

-

-

-

-

-

-

-

-

-

-

-

2

-

-

-

3

-

-

2

5

b

-

-

-

-

-

-

-

-

-

-

-

-

-

-

-

-

-

-

-

-

-

-

-

-

-

-

-

-

4

-

-

-

5

-

-

4

-

-

-

5

-

-

4

-

-

g

-

-

-

-

-

-

-

-

-

-

-

-

-

-

-

-

2

-

-

-

4

-

-

2

5

-

-

4

-

-

2

5

-

-

4

-

-

2

5

-

-

4

-

-

-

d

-

-

-

-

2

-

-

-

4

-

-

2

5

-

-

4

-

-

2

5

-

-

4

-

-

2

5

-

-

4

-

-

-

5

-

-

-

-

-

-

-

-

-

-

-

a

-

-

-

3

-

-

2

6

-

-

3

-

-

2

6

-

-

3

-

-

-

6

-

-

-

-

-

-

-

-

-

-

-

-

-

-

-

-

-

-

-

-

-

-

-

e

-

2

5

-

-

3

-

-

-

5

-

-

-

-

-

-

-

-

-

-

-

-

-

-

-

-

-

-

-

-

-

-

-

-

-

-

-

-

-

-

-

-

-

-

-

 

Melodic

 

e

-

-

-

-

-

-

-

-

-

-

-

-

-

-

-

-

-

-

-

-

-

-

-

-

-

-

-

-

-

-

-

-

-

-

-

-

2

-

-

-

3

-

-

2

5

b

-

-

-

-

-

-

-

-

-

-

-

-

-

-

-

-

-

-

-

-

-

-

-

-

-

-

-

-

4

-

-

-

5

-

-

4

-

-

-

5

-

-

4

-

-

g

-

-

-

-

-

-

-

-

-

-

-

-

-

-

-

-

2

-

-

-

4

-

-

2

6

-

-

4

-

-

2

6

-

-

4

-

-

2

6

-

-

4

-

-

-

d

-

-

-

-

2

-

-

-

4

-

-

2

5

-

-

4

-

-

2

5

-

-

4

-

-

2

5

-

-

4

-

-

-

5

-

-

-

-

-

-

-

-

-

-

-

a

-

-

-

4

-

-

2

6

-

-

4

-

-

2

6

-

-

4

-

-

-

6

-

-

-

-

-

-

-

-

-

-

-

-

-

-

-

-

-

-

-

-

-

-

-

e

-

2

5

-

-

3

-

-

-

5

-

-

-

-

-

-

-

-

-

-

-

-

-

-

-

-

-

-

-

-

-

-

-

-

-

-

-

-

-

-

-

-

-

-

-

 

Descending (Notice the note difference between the ascending and descending patterns

 

e

-

5

2

-

-

3

-

-

-

2

-

-

-

-

-

-

-

-

-

-

-

-

-

-

-

-

-

-

-

-

-

-

-

-

-

-

-

-

-

-

-

-

-

-

-

b

-

-

-

3

-

-

5

-

-

-

3

-

-

5

-

-

-

3

-

-

-

-

-

-

-

-

-

-

-

-

-

-

-

-

-

-

-

-

-

-

-

-

-

-

-

g

-

-

-

-

4

-

-

5

2

-

-

4

-

-

5

2

-

-

4

-

-

5

2

-

-

4

-

-

-

2

-

-

-

-

-

-

-

-

-

-

-

-

-

-

-

d

-

-

-

-

-

-

-

-

-

-

-

-

5

-

-

-

4

-

-

5

2

-

-

4

-

-

5

2

-

-

4

-

-

5

2

-

-

4

-

-

-

2

-

-

-

a

-

-

-

-

-

-

-

-

-

-

-

-

-

-

-

-

-

-

-

-

-

-

-

-

5

-

-

-

3

-

-

5

2

-

-

3

-

-

5

2

-

-

3

-

-

e

-

-

-

-

-

-

-

-

-

-

-

-

-

-

-

-

-

-

-

-

-

-

-

-

-

-

-

-

-

-

-

-

-

-

-

-

5

-

-

-

3

-

-

5

2

 

Complete weaves are in the documents

Arpeggio Weaves 7ths Harmonic

Arpeggio Weaves 7ths Melodic

 

Other Modal Arpeggios

 

So far, the patterns have just been in the Locrean position for the G scale. Of course, these patterns have counterparts in the other scale forms.

 

Ionian

 

 

 

 

 

 

 

 

 

 

 

 

 

 

 

 

 

 

 

 

 

 

 

 

 

 

 

 

 

 

 

 

 

 

 

 

 

 

 

 

 

 

 

 

 

 

 

e

-

-

-

-

-

-

-

-

-

-

-

-

-

-

-

-

-

-

-

-

-

-

-

-

-

-

-

-

-

-

-

-

-

-

-

-

2

-

-

-

4

-

-

2

6

 

b

-

-

-

-

-

-

-

-

-

-

-

-

-

-

-

-

-

-

-

-

-

-

-

-

2

-

-

-

4

-

-

2

6

-

-

4

-

-

2

6

-

-

4

-

-

 

g

-

-

-

-

-

-

-

-

-

-

-

-

-

-

-

-

3

-

-

-

4

-

-

3

-

-

-

4

-

-

3

-

-

-

4

-

-

3

-

-

-

4

-

-

-

 

d

-

-

-

-

3

-

-

-

4

-

-

3

6

-

-

4

-

-

3

6

-

-

4

-

-

3

6

-

-

4

-

-

-

6

-

-

-

-

-

-

-

-

-

-

-

 

a

-

-

-

4

-

-

2

6

-

-

4

-

-

2

6

-

-

4

-

-

-

6

-

-

-

-

-

-

-

-

-

-

-

-

-

-

-

-

-

-

-

-

-

-

-

 

e

-

2

6

-

-

4

-

-

-

6

-

-

-

-

-

-

-

-

-

-

-

-

-

-

-

-

-

-

-

-

-

-

-

-

-

-

-

-

-

-

-

-

-

-

-

Dorian

 

 

 

 

 

 

 

 

 

 

 

 

 

 

 

 

 

 

 

 

 

 

 

 

 

 

 

 

 

 

 

 

 

 

 

 

 

 

 

 

 

 

 

 

 

 

e

-

-

-

-

-

-

-

-

-

-

-

-

-

-

-

-

-

-

-

-

-

-

-

-

-

-

-

-

-

-

-

-

-

-

-

-

2

-

-

-

4

-

-

2

5

 

b

-

-

-

-

-

-

-

-

-

-

-

-

-

-

-

-

-

-

-

-

-

-

-

-

2

-

-

-

4

-

-

2

5

-

-

4

-

-

2

5

-

-

4

-

-

 

g

-

-

-

-

-

-

-

-

-

-

-

-

-

-

-

-

2

-

-

-

4

-

-

2

-

-

-

4

-

-

2

-

-

-

4

-

-

2

-

-

-

4

-

-

-

 

d

-

-

-

-

2

-

-

-

4

-

-

2

6

-

-

4

-

-

2

6

-

-

4

-

-

2

6

-

-

4

-

-

-

6

-

-

-

-

-

-

-

-

-

-

-

 

a

-

-

-

4

-

-

2

6

-

-

4

-

-

2

6

-

-

4

-

-

-

6

-

-

-

-

-

-

-

-

-

-

-

-

-

-

-

-

-

-

-

-

-

-

-

 

e

-

2

5

-

-

4

-

-

-

5

-

-

-

-

-

-

-

-

-

-

-

-

-

-

-

-

-

-

-

-

-

-

-

-

-

-

-

-

-

-

-

-

-

-

-

Phrygian

 

 

 

 

 

 

 

 

 

 

 

 

 

 

 

 

 

 

 

 

 

 

 

 

 

 

 

 

 

 

 

 

 

 

 

 

 

 

 

 

 

 

 

 

 

 

e

-

-

-

-

-

-

-

-

-

-

-

-

-

-

-

-

-

-

-

-

-

-

-

-

-

-

-

-

-

-

-

-

-

-

-

-

2

-

-

-

3

-

-

2

5

 

b

-

-

-

-

-

-

-

-

-

-

-

-

-

-

-

-

-

-

-

-

-

-

-

-

2

-

-

-

3

-

-

2

5

-

-

3

-

-

2

5

-

-

3

-

-

 

g

-

-

-

-

-

-

-

-

-

-

-

-

-

-

-

-

2

-

-

-

4

-

-

2

-

-

-

4

-

-

2

-

-

-

4

-

-

2

-

-

-

4

-

-

-

 

d

-